Take my Life (Jeremy Camp version)

By Adam






Intro (Play Once)
E||--------------------------|--------------------------|
B||--------------------------|--------------------------|
G||--5--5--5--5--5--5--5--5--|--5--7--7--7--7--7--7--7--|
D||--------------------------|--------------------------|
A||--3--3--3--3--3--3--3--3--|--3--5--5--5--5--5--5--5--|
E||--------------------------|--------------------------|
  
--------------------------|---------------------------------|
--------------------------|---------------------------------|
--7--8--8--8--8--8--8--8--|--8--10--10--10--10--10--10--10--|
--------------------------|---------------------------------|
--5--6--6--6--6--6--6--6--|--6---8---8---8---8---8---8---8--|
--------------------------|---------------------------------|

--------------------------|--------------------------|
--------------------------|--------------------------|
--5--5--5--5--5--5--5--5--|--8--8--8--7--7--7--7--7--|
--------------------------|--------------------------|
--3--3--3--3--3--3--3--3--|--6--6--6--5--5--5--5--5--|
--------------------------|--------------------------|

--------------------------|--------------------------|
--------------------------|--------------------------|
--------------------------|--------------------------|
--6--6--6--6--6--6--6--6--|--6--6--6--6--6--6--6--6--|
--6--6--6--6--6--6--6--6--|--6--6--6--6--6--6--6--6--|
--4--4--4--4--4--4--4--4--|--4--4--4--4--4--4--4--4--|

Verse (Repeat Ad Nauseum)
  PM  PM PM  PM PM  PM PM  PM    PM  PM PM  PM PM  PM PM  PM 
------------------------------|------------------------------|
------------------------------|------------------------------|
--8------8------8-------------|--8------8------8--10--8------|
-----10-----10-----10--8--10--|-----10-----10------------10--|
------------------------------|------------------------------|
------------------------------|------------------------------|

  PM  PM PM  PM PM  PM PM  PM    PM  PM PM  PM PM  PM PM   
------------------------------|----------------------------|
------------------------------|----------------------------|
--8------8------8-------------|--8------8------8-----------|
-----10-----10-----10--8--10--|-----10-----10-----10--8----|
------------------------------|----------------------------|
------------------------------|----------------------------|

Chorus (Play Twice)
-------------------------|-----------------------|------------|
-------------------------|-----------------------|------------|
-------------------------|-----------------------|------------|
--10--10-----------------|--8--8-----------------|--6--6------|
--10--10-----------------|--8--8-----------------|--6--6------|
---8---8-----------------|--6--6-----------------|--4--4------|

------------------------|----------------------------------|
------------------------|----------------------------------|
------------------------|----------------------------------|
--6--6-------8--8-------|--10--10--10--10--10--10--10--10--|
--6--6-------8--8-------|--10--10--10--10--10--10--10--10--|
--4--4-------6--6-------|---8---8---8---8---8---8---8---8--|

--------------------------|--------------------------|
--------------------------|--------------------------|
--------------------------|--------------------------|
--8--8--8--8--8--8--8--8--|--6--6--6--6--6--6--6--5--|
--8--8--8--8--8--8--8--8--|--6--6--6--6--6--6--6--5--|
--6--6--6--6--6--6--6--6--|--4--4--4--4--4--4--4--3--|
  PM  PM PM  PM PM  PM PM  PM    PM  PM PM  PM PM  PM   


Pinch That Bad Boy!   
------------------------------|-------------------------------|
------------------------------|-------------------------------|
--8------8------8-------------|--8------8------8--10----------|
-----10-----10-----10--8--10--|-----10-----10-----------------|
------------------------------|-------------------------------|
------------------------------|-------------------------------|

Bridge
------------------|----------|-------------|---------------------
------------------|----------|-------------|---------------------
------------------|----------|-------------|---------------------
-3--3--3--3--3--3-|3-3-3-3-5-|-6-6-6-6-6-6-|-6--6--6--6--6--6--6-
-3--3--3--3--3--3-|3-3-3-3-5-|-6-6-6-6-6-6-|-6--6--6--6--6--6--6-
-1--1--1--1--1--1-|1-1-1-1-3-|-4-4-4-4-4-4-|-4--4--4--4--4--4--4-
  PM  PM PM  PM PM  PM PM  PM    PM  PM PM  PM PM  PM PM  PM 

------------------------------|------------------------------|
------------------------------|------------------------------|
--8------8------8-------------|--8------8------8--10--8------|
-----10-----10-----10--8--10--|-----10-----10------------10--|
------------------------------|------------------------------|
------------------------------|------------------------------|
  PM  PM PM  PM PM  PM PM  PM    PM  PM PM  PM PM  PM PM  
------------------------------|----------------------------|
------------------------------|----------------------------|
--8------8------8-------------|--8------8------8-----------|
-----10-----10-----10--8--10--|-----10-----10-----10--8----|
------------------------------|----------------------------|
------------------------------|----------------------------|



------------------|----------|-------------|---------------------
------------------|----------|-------------|---------------------
------------------|----------|-------------|---------------------
-3--3--3--3--3--3-|3-3-3-3-5-|-6-6-6-6-6-6-|-6--6--6--6--6--6--6-
-3--3--3--3--3--3-|3-3-3-3-5-|-6-6-6-6-6-6-|-6--6--6--6--6--6--6-
-1--1--1--1--1--1-|1-1-1-1-3-|-4-4-4-4-4-4-|-4--4--4--4--4--4--4-
  PM  PM PM  PM PM  PM PM  PM    PM  PM PM  PM PM  PM PM  PM 

------------------------------|------------------------------|
------------------------------|------------------------------|
--8------8------8-------------|--8------8------8--10--8------|
-----10-----10-----10--8--10--|-----10-----10------------10--|
------------------------------|------------------------------|
------------------------------|------------------------------|
  PM PM PM PM PM PM PM PM     Wail on that thing!

--------------------------|----------------------|
--------------------------|----------------------|
--8--8--8--8--8--8--8--8--|----------------------|
--------------------------|----------------------|
--------------------------|----------------------|
--------------------------|----------------------|

Outro 
--------------------------|--------------------------|
--------------------------|--------------------------|
--5--5--5--5--5--5--5--5--|--5--7--7--7--7--7--7--7--|
--------------------------|--------------------------|
--3--3--3--3--3--3--3--3--|--3--5--5--5--5--5--5--5--|
--------------------------|--------------------------|

--------------------------|---------------------------------|
--------------------------|---------------------------------|
--7--8--8--8--8--8--8--8--|--8--10--10--10--10--10--10--10--|
--------------------------|---------------------------------|
--5--6--6--6--6--6--6--6--|--6---8---8---8---8---8---8---8--|
--------------------------|---------------------------------|

--------------------------|--------------------------|
--------------------------|--------------------------|
--5--5--5--5--5--5--5--5--|--8--8--8--7--7--7--7--7--|
--------------------------|--------------------------|
--3--3--3--3--3--3--3--3--|--6--6--6--5--5--5--5--5--|
--------------------------|--------------------------|
  
--------------------------|--------------------------|--------||
--------------------------|--------------------------|--------||
--------------------------|--------------------------|--5--5--||
--6--6--6--6--6--6--6--5--|--------------------------|--5--5--||
--6--6--6--6--6--6--6--5--|-----6-----5-----6-----5--|--3--3--||
--4--4--4--4--4--4--4--3--|-----4-----3-----4-----3--|-------—||

2 comments:

blogcenter said...

Thanks for this quick guitar lessons

cecillia said...

thank you, this website has provided very useful knowledge for me and others Latest Price and Specifications Motorcycle